  0
SECTION
  2
HEADER
  9
$ACADVER
  1
AC1015
  9
$ACADMAINTVER
 70
     6
  9
$DWGCODEPAGE
  3
ANSI_1254
  9
$INSBASE
 10
0.0
 20
0.0
 30
0.0
  9
$EXTMIN
 10
0.0
 20
0.0
 30
0.0
  9
$EXTMAX
 10
279.4
 20
215.9
 30
0.0
  9
$LIMMIN
 10
0.0
 20
0.0
  9
$LIMMAX
 10
279.4
 20
215.9
  9
$ORTHOMODE
 70
     0
  9
$REGENMODE
 70
     1
  9
$FILLMODE
 70
     1
  9
$QTEXTMODE
 70
     0
  9
$MIRRTEXT
 70
     1
  9
$LTSCALE
 40
1.0
  9
$ATTMODE
 70
     1
  9
$TEXTSIZE
 40
3.5
  9
$TRACEWID
 40
1.0
  9
$TEXTSTYLE
  7
Standard
  9
$CLAYER
  8
0
  9
$CELTYPE
  6
ByLayer
  9
$CECOLOR
 62
   256
  9
$CELTSCALE
 40
1.0
  9
$DISPSILH
 70
     0
  9
$DIMSCALE
 40
1.0
  9
$DIMASZ
 40
3.5
  9
$DIMEXO
 40
1.0
  9
$DIMDLI
 40
3.75
  9
$DIMRND
 40
0.0
  9
$DIMDLE
 40
0.0
  9
$DIMEXE
 40
1.0
  9
$DIMTP
 40
0.0
  9
$DIMTM
 40
0.0
  9
$DIMTXT
 40
3.5
  9
$DIMCEN
 40
2.5
  9
$DIMTSZ
 40
0.0
  9
$DIMTOL
 70
     0
  9
$DIMLIM
 70
     0
  9
$DIMTIH
 70
     1
  9
$DIMTOH
 70
     1
  9
$DIMSE1
 70
     0
  9
$DIMSE2
 70
     0
  9
$DIMTAD
 70
     1
  9
$DIMZIN
 70
     0
  9
$DIMBLK
  1

  9
$DIMASO
 70
     1
  9
$DIMSHO
 70
     1
  9
$DIMPOST
  1

  9
$DIMAPOST
  1

  9
$DIMALT
 70
     0
  9
$DIMALTD
 70
     3
  9
$DIMALTF
 40
0.0393700787
  9
$DIMLFAC
 40
1.0
  9
$DIMTOFL
 70
     1
  9
$DIMTVP
 40
0.0
  9
$DIMTIX
 70
     0
  9
$DIMSOXD
 70
     0
  9
$DIMSAH
 70
     0
  9
$DIMBLK1
  1

  9
$DIMBLK2
  1

  9
$DIMSTYLE
  2
ISO-25
  9
$DIMCLRD
 70
     0
  9
$DIMCLRE
 70
     0
  9
$DIMCLRT
 70
     0
  9
$DIMTFAC
 40
1.0
  9
$DIMGAP
 40
1.524
  9
$DIMJUST
 70
     0
  9
$DIMSD1
 70
     0
  9
$DIMSD2
 70
     0
  9
$DIMTOLJ
 70
     0
  9
$DIMTZIN
 70
     0
  9
$DIMALTZ
 70
     0
  9
$DIMALTTZ
 70
     0
  9
$DIMUPT
 70
     0
  9
$DIMDEC
 70
     2
  9
$DIMTDEC
 70
     2
  9
$DIMALTU
 70
     2
  9
$DIMALTTD
 70
     3
  9
$DIMTXSTY
  7
Standard
  9
$DIMAUNIT
 70
     0
  9
$DIMADEC
 70
     2
  9
$DIMALTRND
 40
0.0
  9
$DIMAZIN
 70
     0
  9
$DIMDSEP
 70
    44
  9
$DIMATFIT
 70
     3
  9
$DIMFRAC
 70
     0
  9
$DIMLDRBLK
  1

  9
$DIMLUNIT
 70
     2
  9
$DIMLWD
 70
    -2
  9
$DIMLWE
 70
    -2
  9
$DIMTMOVE
 70
     0
  9
$LUNITS
 70
     2
  9
$LUPREC
 70
     2
  9
$SKETCHINC
 40
1.0
  9
$FILLETRAD
 40
10.0
  9
$AUNITS
 70
     0
  9
$AUPREC
 70
     2
  9
$MENU
  1
.
  9
$ELEVATION
 40
0.0
  9
$PELEVATION
 40
0.0
  9
$THICKNESS
 40
0.0
  9
$LIMCHECK
 70
     0
  9
$CHAMFERA
 40
0.0
  9
$CHAMFERB
 40
0.0
  9
$CHAMFERC
 40
0.0
  9
$CHAMFERD
 40
0.0
  9
$SKPOLY
 70
     0
  9
$TDCREATE
 40
2459921.519901667
  9
$TDUCREATE
 40
2459921.394901667
  9
$TDUPDATE
 40
2459921.519901944
  9
$TDUUPDATE
 40
2459921.394901944
  9
$TDINDWG
 40
0.0000000116
  9
$TDUSRTIMER
 40
0.0000000116
  9
$USRTIMER
 70
     1
  9
$ANGBASE
 50
0.0
  9
$ANGDIR
 70
     0
  9
$PDMODE
 70
     0
  9
$PDSIZE
 40
-1.0
  9
$PLINEWID
 40
0.0
  9
$SPLFRAME
 70
     0
  9
$SPLINETYPE
 70
     6
  9
$SPLINESEGS
 70
     8
  9
$HANDSEED
  5
CC
  9
$SURFTAB1
 70
     6
  9
$SURFTAB2
 70
     6
  9
$SURFTYPE
 70
     6
  9
$SURFU
 70
     6
  9
$SURFV
 70
     6
  9
$UCSBASE
  2

  9
$UCSNAME
  2

  9
$UCSORG
 10
0.0
 20
0.0
 30
0.0
  9
$UCSXDIR
 10
1.0
 20
0.0
 30
0.0
  9
$UCSYDIR
 10
0.0
 20
1.0
 30
0.0
  9
$UCSORTHOREF
  2

  9
$UCSORTHOVIEW
 70
     0
  9
$UCSORGTOP
 10
0.0
 20
0.0
 30
0.0
  9
$UCSORGBOTTOM
 10
0.0
 20
0.0
 30
0.0
  9
$UCSORGLEFT
 10
0.0
 20
0.0
 30
0.0
  9
$UCSORGRIGHT
 10
0.0
 20
0.0
 30
0.0
  9
$UCSORGFRONT
 10
0.0
 20
0.0
 30
0.0
  9
$UCSORGBACK
 10
0.0
 20
0.0
 30
0.0
  9
$PUCSBASE
  2

  9
$PUCSNAME
  2

  9
$PUCSORG
 10
0.0
 20
0.0
 30
0.0
  9
$PUCSXDIR
 10
1.0
 20
0.0
 30
0.0
  9
$PUCSYDIR
 10
0.0
 20
1.0
 30
0.0
  9
$PUCSORTHOREF
  2

  9
$PUCSORTHOVIEW
 70
     0
  9
$PUCSORGTOP
 10
0.0
 20
0.0
 30
0.0
  9
$PUCSORGBOTTOM
 10
0.0
 20
0.0
 30
0.0
  9
$PUCSORGLEFT
 10
0.0
 20
0.0
 30
0.0
  9
$PUCSORGRIGHT
 10
0.0
 20
0.0
 30
0.0
  9
$PUCSORGFRONT
 10
0.0
 20
0.0
 30
0.0
  9
$PUCSORGBACK
 10
0.0
 20
0.0
 30
0.0
  9
$USERI1
 70
     0
  9
$USERI2
 70
     0
  9
$USERI3
 70
     0
  9
$USERI4
 70
     0
  9
$USERI5
 70
     0
  9
$USERR1
 40
0.0
  9
$USERR2
 40
0.0
  9
$USERR3
 40
0.0
  9
$USERR4
 40
0.0
  9
$USERR5
 40
0.0
  9
$WORLDVIEW
 70
     1
  9
$SHADEDGE
 70
     3
  9
$SHADEDIF
 70
    70
  9
$TILEMODE
 70
     1
  9
$MAXACTVP
 70
    64
  9
$PINSBASE
 10
0.0
 20
0.0
 30
0.0
  9
$PLIMCHECK
 70
     0
  9
$PEXTMIN
 10
1.0000000000E+20
 20
1.0000000000E+20
 30
1.0000000000E+20
  9
$PEXTMAX
 10
-1.0000000000E+20
 20
-1.0000000000E+20
 30
-1.0000000000E+20
  9
$PLIMMIN
 10
0.0
 20
0.0
  9
$PLIMMAX
 10
420.0
 20
297.0
  9
$UNITMODE
 70
     0
  9
$VISRETAIN
 70
     1
  9
$PLINEGEN
 70
     0
  9
$PSLTSCALE
 70
     1
  9
$TREEDEPTH
 70
  3020
  9
$CMLSTYLE
  2
Standard
  9
$CMLJUST
 70
     0
  9
$CMLSCALE
 40
20.0
  9
$PROXYGRAPHICS
 70
     1
  9
$MEASUREMENT
 70
     1
  9
$CELWEIGHT
370
    -1
  9
$ENDCAPS
280
     0
  9
$JOINSTYLE
280
     0
  9
$LWDISPLAY
290
     1
  9
$INSUNITS
 70
     4
  9
$HYPERLINKBASE
  1

  9
$STYLESHEET
  1

  9
$XEDIT
290
     1
  9
$CEPSNTYPE
380
     0
  9
$PSTYLEMODE
290
     1
  9
$FINGERPRINTGUID
  2
{74c1d905-3303-4f09-b671-8ff32c7a6d63}
  9
$VERSIONGUID
  2
{FAEB1C32-E019-11D5-929B-00C0DF256EC4}
  9
$EXTNAMES
290
     1
  9
$PSVPSCALE
 40
0.0
  9
$OLESTARTUP
290
     0
  0
ENDSEC
  0
SECTION
  2
CLASSES
  0
CLASS
  1
ACDBDICTIONARYWDFLT
  2
AcDbDictionaryWithDefault
  3
ObjectDBX Classes
 90
        0
280
     0
281
     0
  0
CLASS
  1
VISUALSTYLE
  2
AcDbVisualStyle
  3
ObjectDBX Classes
 90
     4095
280
     0
281
     0
  0
CLASS
  1
MATERIAL
  2
AcDbMaterial
  3
ObjectDBX Classes
 90
     1153
280
     0
281
     0
  0
CLASS
  1
SCALE
  2
AcDbScale
  3
ObjectDBX Classes
 90
     1153
280
     0
281
     0
  0
CLASS
  1
TABLESTYLE
  2
AcDbTableStyle
  3
ObjectDBX Classes
 90
     4095
280
     0
281
     0
  0
CLASS
  1
MLEADERSTYLE
  2
AcDbMLeaderStyle
  3
ACDB_MLEADERSTYLE_CLASS
 90
     4095
280
     0
281
     0
  0
CLASS
  1
SUN
  2
AcDbSun
  3
SCENEOE
 90
     1153
280
     0
281
     0
  0
CLASS
  1
ACDBPLACEHOLDER
  2
AcDbPlaceHolder
  3
ObjectDBX Classes
 90
        0
280
     0
281
     0
  0
CLASS
  1
LAYOUT
  2
AcDbLayout
  3
ObjectDBX Classes
 90
        0
280
     0
281
     0
  0
ENDSEC
  0
SECTION
  2
TABLES
  0
TABLE
  2
VPORT
  5
8
330
0
100
AcDbSymbolTable
 70
     1
  0
VPORT
  5
29
330
8
100
AcDbSymbolTableRecord
100
AcDbViewportTableRecord
  2
*Active
 70
     0
 10
0.0
 20
0.0
 11
1.0
 21
1.0
 12
139.7
 22
107.95
 13
0.0
 23
0.0
 14
10.0
 24
10.0
 15
10.0
 25
10.0
 16
0.0
 26
0.0
 36
1.0
 17
0.0
 27
0.0
 37
0.0
 40
215.9
 41
1.2941176471
 42
50.0
 43
0.0
 44
0.0
 50
0.0
 51
0.0
 71
     0
 72
  2000
 73
     1
 74
     3
 75
     0
 76
     0
 77
     0
 78
     0
281
     0
 65
     1
110
0.0
120
0.0
130
0.0
111
1.0
121
0.0
131
0.0
112
0.0
122
1.0
132
0.0
 79
     0
146
0.0
  0
ENDTAB
  0
TABLE
  2
LTYPE
  5
5
330
0
100
AcDbSymbolTable
 70
     6
  0
LTYPE
  5
14
330
5
100
AcDbSymbolTableRecord
100
AcDbLinetypeTableRecord
  2
ByBlock
 70
     0
  3

 72
    65
 73
     0
 40
0.0
  0
LTYPE
  5
15
330
5
100
AcDbSymbolTableRecord
100
AcDbLinetypeTableRecord
  2
ByLayer
 70
     0
  3

 72
    65
 73
     0
 40
0.0
  0
LTYPE
  5
16
330
5
100
AcDbSymbolTableRecord
100
AcDbLinetypeTableRecord
  2
Continuous
 70
     0
  3
Solid line
 72
    65
 73
     0
 40
0.0
  0
LTYPE
  5
6E
330
5
100
AcDbSymbolTableRecord
100
AcDbLinetypeTableRecord
  2
HIDDEN
 70
     0
  3
Hidden __ __ __ __ __ __ __ __ __ __ __ __ __ __
 72
    65
 73
     2
 40
1.905
 49
1.27
 74
     0
 49
-0.635
 74
     0
  0
LTYPE
  5
6F
330
5
100
AcDbSymbolTableRecord
100
AcDbLinetypeTableRecord
  2
PHANTOM
 70
     0
  3
Phantom ______  __  __  ______  __  __  ______
 72
    65
 73
     6
 40
12.7
 49
6.35
 74
     0
 49
-1.27
 74
     0
 49
1.27
 74
     0
 49
-1.27
 74
     0
 49
1.27
 74
     0
 49
-1.27
 74
     0
  0
LTYPE
  5
70
330
5
100
AcDbSymbolTableRecord
100
AcDbLinetypeTableRecord
  2
CENTER
 70
     0
  3
Center ____ _ ____ _ ____ _ ____ _ ____ _ ____
 72
    65
 73
     4
 40
10.16
 49
6.35
 74
     0
 49
-1.27
 74
     0
 49
1.27
 74
     0
 49
-1.27
 74
     0
  0
LTYPE
  5
71
330
5
100
AcDbSymbolTableRecord
100
AcDbLinetypeTableRecord
  2
CENTERX2
 70
     0
  3
Center (2x) ________  __  ________  __  _____
 72
    65
 73
     4
 40
20.32
 49
12.7
 74
     0
 49
-2.54
 74
     0
 49
2.54
 74
     0
 49
-2.54
 74
     0
  0
LTYPE
  5
72
330
5
100
AcDbSymbolTableRecord
100
AcDbLinetypeTableRecord
  2
DOT2
 70
     0
  3
Dot (.5x) ........................................
 72
    65
 73
     2
 40
0.635
 49
0.0
 74
     0
 49
-0.635
 74
     0
  0
ENDTAB
  0
TABLE
  2
LAYER
  5
2
330
0
100
AcDbSymbolTable
 70
    17
  0
LAYER
  5
10
330
2
100
AcDbSymbolTableRecord
100
AcDbLayerTableRecord
  2
0
 70
     0
 62
     7
  6
Continuous
370
    -3
390
F
  0
LAYER
  5
73
330
2
100
AcDbSymbolTableRecord
100
AcDbLayerTableRecord
  2
FORMAT
 70
     0
 62
     7
  6
Continuous
370
    -3
390
F
  0
LAYER
  5
74
330
2
100
AcDbSymbolTableRecord
100
AcDbLayerTableRecord
  2
YARDIMCI_GEOMETRI
 70
     0
 62
    -6
  6
Continuous
290
     0
370
    -3
390
F
  0
LAYER
  5
75
330
2
100
AcDbSymbolTableRecord
100
AcDbLayerTableRecord
  2
SAYFA_CERCEVESI
 70
     0
 62
     7
  6
Continuous
370
    25
390
F
  0
LAYER
  5
76
330
2
100
AcDbSymbolTableRecord
100
AcDbLayerTableRecord
  2
ANTET
 70
     0
 62
     7
  6
Continuous
370
    -3
390
F
  0
LAYER
  5
77
330
2
100
AcDbSymbolTableRecord
100
AcDbLayerTableRecord
  2
OLCU
 70
     0
 62
   150
  6
Continuous
370
    -3
390
F
  0
LAYER
  5
78
330
2
100
AcDbSymbolTableRecord
100
AcDbLayerTableRecord
  2
METIN
 70
     0
 62
    96
  6
Continuous
370
    -3
390
F
  0
LAYER
  5
79
330
2
100
AcDbSymbolTableRecord
100
AcDbLayerTableRecord
  2
BALON
 70
     0
 62
     5
  6
Continuous
370
    -3
390
F
  0
LAYER
  5
7A
330
2
100
AcDbSymbolTableRecord
100
AcDbLayerTableRecord
  2
VURGU
 70
     0
 62
     7
  6
Continuous
370
    -3
390
F
  0
LAYER
  5
7B
330
2
100
AcDbSymbolTableRecord
100
AcDbLayerTableRecord
  2
SILIK
 70
     0
 62
     7
  6
Continuous
370
    -3
390
F
  0
LAYER
  5
7C
330
2
100
AcDbSymbolTableRecord
100
AcDbLayerTableRecord
  2
MODEL
 70
     0
 62
     7
  6
Continuous
370
    -3
390
F
  0
LAYER
  5
7D
330
2
100
AcDbSymbolTableRecord
100
AcDbLayerTableRecord
  2
DETAYLANDıRMA
 70
     0
 62
   190
  6
Continuous
370
    -3
390
F
  0
LAYER
  5
7E
330
2
100
AcDbSymbolTableRecord
100
AcDbLayerTableRecord
  2
TOLERANS
 70
     0
 62
   230
  6
Continuous
370
    -3
390
F
  0
LAYER
  5
7F
330
2
100
AcDbSymbolTableRecord
100
AcDbLayerTableRecord
  2
MERKEZ_CIZGILERI
 70
     0
 62
    30
  6
Continuous
370
    -3
390
F
  0
LAYER
  5
80
330
2
100
AcDbSymbolTableRecord
100
AcDbLayerTableRecord
  2
KESIT-DETAY_CIZGILERI
 70
     0
 62
     7
  6
Continuous
370
    -3
390
F
  0
LAYER
  5
81
330
2
100
AcDbSymbolTableRecord
100
AcDbLayerTableRecord
  2
\U+041E\U+0421\U+0415\U+0412\U+042B\U+0415
 70
     0
 62
     7
  6
Continuous
370
    -3
390
F
  0
LAYER
  5
82
330
2
100
AcDbSymbolTableRecord
100
AcDbLayerTableRecord
  2
\U+0412\U+041E\U+0414\U+042F\U+041D\U+042B\U+0415_\U+0417\U+041D\U+0410\U+041A\U+0418
 70
     0
 62
    11
  6
Continuous
370
    -3
390
F
  0
ENDTAB
  0
TABLE
  2
STYLE
  5
3
330
0
100
AcDbSymbolTable
 70
     1
  0
STYLE
  5
11
330
3
100
AcDbSymbolTableRecord
100
AcDbTextStyleTableRecord
  2
Standard
 70
     0
 40
0.0
 41
1.0
 50
0.0
 71
     0
 42
3.5
  3
txt
  4

  0
ENDTAB
  0
TABLE
  2
VIEW
  5
6
330
0
100
AcDbSymbolTable
 70
     0
  0
ENDTAB
  0
TABLE
  2
UCS
  5
7
330
0
100
AcDbSymbolTable
 70
     0
  0
ENDTAB
  0
TABLE
  2
APPID
  5
9
330
0
100
AcDbSymbolTable
 70
     1
  0
APPID
  5
12
330
9
100
AcDbSymbolTableRecord
100
AcDbRegAppTableRecord
  2
ACAD
 70
     0
  0
ENDTAB
  0
TABLE
  2
DIMSTYLE
  5
A
330
0
100
AcDbSymbolTable
 70
     1
100
AcDbDimStyleTable
  0
DIMSTYLE
105
27
330
A
100
AcDbSymbolTableRecord
100
AcDbDimStyleTableRecord
  2
ISO-25
 70
     0
 41
2.5
 42
0.625
 43
3.75
 44
1.25
 73
     0
 74
     0
 77
     1
 78
     8
140
2.5
141
2.5
143
0.0393700787
147
0.625
171
     3
172
     1
178
     0
271
     2
272
     2
274
     3
278
    44
283
     0
284
     8
340
11
  0
ENDTAB
  0
TABLE
  2
BLOCK_RECORD
  5
1
330
0
100
AcDbSymbolTable
 70
     3
  0
BLOCK_RECORD
  5
1F
330
1
100
AcDbSymbolTableRecord
100
AcDbBlockTableRecord
  2
*Model_Space
340
22
  0
BLOCK_RECORD
  5
1B
330
1
100
AcDbSymbolTableRecord
100
AcDbBlockTableRecord
  2
*Paper_Space
340
1E
  0
BLOCK_RECORD
  5
23
330
1
100
AcDbSymbolTableRecord
100
AcDbBlockTableRecord
  2
*Paper_Space0
340
26
  0
BLOCK_RECORD
  5
88
330
1
100
AcDbSymbolTableRecord
100
AcDbBlockTableRecord
  2
SW_CENTERMARKSYMBOL_0
340
0
102
{BLKREFS
331
93
102
}
  0
BLOCK_RECORD
  5
B2
330
1
100
AcDbSymbolTableRecord
100
AcDbBlockTableRecord
  2
SW_CENTERMARKSYMBOL_1
340
0
102
{BLKREFS
331
BD
102
}
  0
ENDTAB
  0
ENDSEC
  0
SECTION
  2
BLOCKS
  0
BLOCK
  5
20
330
1F
100
AcDbEntity
  8
0
100
AcDbBlockBegin
  2
*Model_Space
 70
     0
 10
0.0
 20
0.0
 30
0.0
  3
*Model_Space
  1

  0
ENDBLK
  5
21
330
1F
100
AcDbEntity
  8
0
100
AcDbBlockEnd
  0
BLOCK
  5
1C
330
1B
100
AcDbEntity
 67
     1
  8
0
100
AcDbBlockBegin
  2
*Paper_Space
 70
     0
 10
0.0
 20
0.0
 30
0.0
  3
*Paper_Space
  1

  0
ENDBLK
  5
1D
330
1B
100
AcDbEntity
 67
     1
  8
0
100
AcDbBlockEnd
  0
BLOCK
  5
24
330
23
100
AcDbEntity
  8
0
100
AcDbBlockBegin
  2
*Paper_Space0
 70
     0
 10
0.0
 20
0.0
 30
0.0
  3
*Paper_Space0
  1

  0
ENDBLK
  5
25
330
23
100
AcDbEntity
  8
0
100
AcDbBlockEnd
  0
BLOCK
  5
89
330
88
100
AcDbEntity
  8
0
100
AcDbBlockBegin
  2
SW_CENTERMARKSYMBOL_0
 70
     0
 10
0.0
 20
0.0
 30
0.0
  3
SW_CENTERMARKSYMBOL_0
  1

  0
LINE
  5
8B
330
88
100
AcDbEntity
  8
FORMAT
 62
     0
100
AcDbLine
 10
0.0
 20
0.0
 30
0.0
 11
0.0
 21
2.5
 31
0.0
  0
LINE
  5
8C
330
88
100
AcDbEntity
  8
FORMAT
 62
     0
100
AcDbLine
 10
0.0
 20
0.0
 30
0.0
 11
-2.5
 21
0.0
 31
0.0
  0
LINE
  5
8D
330
88
100
AcDbEntity
  8
FORMAT
 62
     0
100
AcDbLine
 10
0.0
 20
0.0
 30
0.0
 11
0.0
 21
-2.5
 31
0.0
  0
LINE
  5
8E
330
88
100
AcDbEntity
  8
FORMAT
 62
     0
100
AcDbLine
 10
0.0
 20
0.0
 30
0.0
 11
2.5
 21
0.0
 31
0.0
  0
LINE
  5
8F
330
88
100
AcDbEntity
  8
FORMAT
 62
     0
100
AcDbLine
 10
0.0
 20
5.0
 30
0.0
 11
0.0
 21
180.0
 31
0.0
  0
LINE
  5
90
330
88
100
AcDbEntity
  8
FORMAT
 62
     0
100
AcDbLine
 10
-5.0
 20
0.0
 30
0.0
 11
-180.0
 21
0.0
 31
0.0
  0
LINE
  5
91
330
88
100
AcDbEntity
  8
FORMAT
 62
     0
100
AcDbLine
 10
0.0
 20
-5.0
 30
0.0
 11
0.0
 21
-180.0
 31
0.0
  0
LINE
  5
92
330
88
100
AcDbEntity
  8
FORMAT
 62
     0
100
AcDbLine
 10
5.0
 20
0.0
 30
0.0
 11
180.0
 21
0.0
 31
0.0
  0
ENDBLK
  5
8A
330
88
100
AcDbEntity
  8
0
100
AcDbBlockEnd
  0
BLOCK
  5
B3
330
B2
100
AcDbEntity
  8
0
100
AcDbBlockBegin
  2
SW_CENTERMARKSYMBOL_1
 70
     0
 10
0.0
 20
0.0
 30
0.0
  3
SW_CENTERMARKSYMBOL_1
  1

  0
LINE
  5
B5
330
B2
100
AcDbEntity
  8
FORMAT
 62
     0
100
AcDbLine
 10
0.0
 20
0.0
 30
0.0
 11
0.0
 21
2.5
 31
0.0
  0
LINE
  5
B6
330
B2
100
AcDbEntity
  8
FORMAT
 62
     0
100
AcDbLine
 10
0.0
 20
0.0
 30
0.0
 11
-2.5
 21
0.0
 31
0.0
  0
LINE
  5
B7
330
B2
100
AcDbEntity
  8
FORMAT
 62
     0
100
AcDbLine
 10
0.0
 20
0.0
 30
0.0
 11
0.0
 21
-2.5
 31
0.0
  0
LINE
  5
B8
330
B2
100
AcDbEntity
  8
FORMAT
 62
     0
100
AcDbLine
 10
0.0
 20
0.0
 30
0.0
 11
2.5
 21
0.0
 31
0.0
  0
LINE
  5
B9
330
B2
100
AcDbEntity
  8
FORMAT
 62
     0
100
AcDbLine
 10
0.0
 20
5.0
 30
0.0
 11
0.0
 21
57.5
 31
0.0
  0
LINE
  5
BA
330
B2
100
AcDbEntity
  8
FORMAT
 62
     0
100
AcDbLine
 10
-5.0
 20
0.0
 30
0.0
 11
-57.5
 21
0.0
 31
0.0
  0
LINE
  5
BB
330
B2
100
AcDbEntity
  8
FORMAT
 62
     0
100
AcDbLine
 10
0.0
 20
-5.0
 30
0.0
 11
0.0
 21
-57.5
 31
0.0
  0
LINE
  5
BC
330
B2
100
AcDbEntity
  8
FORMAT
 62
     0
100
AcDbLine
 10
5.0
 20
0.0
 30
0.0
 11
57.5
 21
0.0
 31
0.0
  0
ENDBLK
  5
B4
330
B2
100
AcDbEntity
  8
0
100
AcDbBlockEnd
  0
ENDSEC
  0
SECTION
  2
ENTITIES
  0
LINE
  5
83
330
1F
100
AcDbEntity
  8
0
  6
Continuous
 62
     7
370
    25
100
AcDbLine
 10
17.9714777541
 20
52.8543903992
 30
0.0
 11
149.2016690558
 21
52.8543903992
 31
0.0
  0
LINE
  5
84
330
1F
100
AcDbEntity
  8
0
  6
Continuous
 62
     7
370
    25
100
AcDbLine
 10
149.2016690558
 20
162.8543903992
 30
0.0
 11
17.9753638488
 21
162.8543903992
 31
0.0
  0
CIRCLE
  5
85
330
1F
100
AcDbEntity
  8
0
  6
Continuous
 62
     7
370
    25
100
AcDbCircle
 10
-150.7983309442
 20
107.8543903992
 30
0.0
 40
145.3
  0
CIRCLE
  5
86
330
1F
100
AcDbEntity
  8
0
  6
Continuous
 62
     7
370
    25
100
AcDbCircle
 10
-150.7983309442
 20
107.8543903992
 30
0.0
 40
177.5
  0
LINE
  5
87
330
1F
100
AcDbEntity
  8
0
  6
Continuous
 62
     7
370
    25
100
AcDbLine
 10
149.2016690558
 20
162.8543903992
 30
0.0
 11
149.2016690558
 21
52.8543903992
 31
0.0
  0
INSERT
  5
93
330
1F
100
AcDbEntity
  8
FORMAT
100
AcDbBlockReference
  2
SW_CENTERMARKSYMBOL_0
 10
-150.7983309442
 20
107.8543903992
 30
0.0
  0
LINE
  5
94
330
1F
100
AcDbEntity
  8
0
  6
Continuous
 62
     7
370
    25
100
AcDbLine
 10
-328.2983309442
 20
-412.1764749858
 30
0.0
 11
-328.2983309442
 21
-987.1764749858
 31
0.0
  0
LINE
  5
95
330
1F
100
AcDbEntity
  8
0
  6
Continuous
 62
     7
370
    25
100
AcDbLine
 10
26.7016690558
 20
-644.6977432546
 30
0.0
 11
26.7016690558
 21
-412.1764749858
 31
0.0
  0
LINE
  5
96
330
1F
100
AcDbEntity
  8
0
  6
Continuous
 62
     7
370
    25
100
AcDbLine
 10
26.7016690558
 20
-987.1764749858
 30
0.0
 11
26.7016690558
 21
-754.6764749858
 31
0.0
  0
LINE
  5
97
330
1F
100
AcDbEntity
  8
0
  6
Continuous
 62
     7
370
    25
100
AcDbLine
 10
26.7016690558
 20
-754.6764749858
 30
0.0
 11
149.2016690558
 21
-754.6764749858
 31
0.0
  0
LINE
  5
98
330
1F
100
AcDbEntity
  8
0
  6
Continuous
 62
     7
370
    25
100
AcDbLine
 10
149.2016690558
 20
-644.6764749858
 30
0.0
 11
26.6950907325
 21
-644.6764749858
 31
0.0
  0
SPLINE
  5
99
330
1F
100
AcDbEntity
  8
0
  6
Continuous
 62
     7
370
    25
100
AcDbSpline
210
0.0
220
0.0
230
1.0
 70
     8
 71
     3
 72
    45
 73
    41
 74
     0
 42
0.00000001
 43
0.00000001
 40
0.0
 40
0.0
 40
0.0
 40
0.0
 40
0.0034548855863061
 40
0.0299131143249137
 40
0.0565759813782616
 40
0.0816684039654088
 40
0.1069306764742325
 40
0.1327181758254708
 40
0.1586826483967634
 40
0.1843982552541604
 40
0.2102820637854678
 40
0.2366874567846499
 40
0.2632704120018753
 40
0.2899570039043958
 40
0.316827505147296
 40
0.3442850368393805
 40
0.3719499480482875
 40
0.3984833363471024
 40
0.4252134584589
 40
0.4525789558489224
 40
0.4801701884568491
 40
0.5055426326194282
 40
0.5310976443414107
 40
0.557225992245697
 40
0.5835504723033774
 40
0.6086076254534726
 40
0.633830471534588
 40
0.6595630944978629
 40
0.6854668668649077
 40
0.7114933426467218
 40
0.7376908095260066
 40
0.7644226192454586
 40
0.7913384278798139
 40
0.8181493414253481
 40
0.8451502636180559
 40
0.872761998615676
 40
0.9005907241072673
 40
0.9496109348507255
 40
0.9747182423049682
 40
1.0
 40
1.0
 40
1.0
 40
1.0
 10
26.69508538895751
 20
-644.6977432546357
 30
0.0
 10
26.69720588293017
 20
-644.6908928584681
 30
0.0
 10
26.71556555853888
 20
-644.6315807108988
 30
0.0
 10
26.63787892349578
 20
-644.8821907192015
 30
0.0
 10
26.45661859408211
 20
-645.4708669578525
 30
0.0
 10
26.16089872988866
 20
-646.4440175605353
 30
0.0
 10
25.77672600454448
 20
-647.7328097606693
 30
0.0
 10
25.3002031399446
 20
-649.3728909104585
 30
0.0
 10
24.74464654129149
 20
-651.3495719330687
 30
0.0
 10
24.12624011410222
 20
-653.6417786101541
 30
0.0
 10
23.45760625571416
 20
-656.2453670299972
 30
0.0
 10
22.75085607159119
 20
-659.1664407822703
 30
0.0
 10
22.02429219933963
 20
-662.393620442623
 30
0.0
 10
21.30031237946445
 20
-665.8988568141953
 30
0.0
 10
20.59547871302411
 20
-669.6839469298385
 30
0.0
 10
19.93038257679058
 20
-673.738687956003
 30
0.0
 10
19.33710780974268
 20
-677.9760732445473
 30
0.0
 10
18.83496076042313
 20
-682.3407295130723
 30
0.0
 10
18.43404144077637
 20
-686.8214272288743
 30
0.0
 10
18.14329713959595
 20
-691.4637061719441
 30
0.0
 10
17.98264261952476
 20
-696.0953389502328
 30
0.0
 10
17.94895982236402
 20
-700.6485977125942
 30
0.0
 10
18.03326149108134
 20
-705.1101833366691
 30
0.0
 10
18.23654105575232
 20
-709.5869362596605
 30
0.0
 10
18.55101036887635
 20
-713.9619494591526
 30
0.0
 10
18.96106573827239
 20
-718.184248280884
 30
0.0
 10
19.45294252684107
 20
-722.2492177549375
 30
0.0
 10
20.0236228423307
 20
-726.206472936253
 30
0.0
 10
20.65936644880312
 20
-730.0241756860142
 30
0.0
 10
21.3413235543555
 20
-733.6589432904368
 30
0.0
 10
22.05520748226234
 20
-737.1015267196924
 30
0.0
 10
22.78322844301261
 20
-740.3256266180094
 30
0.0
 10
23.50315664088043
 20
-743.2911422374148
 30
0.0
 10
24.19209236679848
 20
-745.9620015758286
 30
0.0
 10
24.83442299586547
 20
-748.3294412221005
 30
0.0
 10
25.41239503923876
 20
-750.3720748909054
 30
0.0
 10
26.03103028646428
 20
-752.4849374754662
 30
0.0
 10
26.4508247920282
 20
-753.8639284154106
 30
0.0
 10
26.67012999195997
 20
-754.5748737073495
 30
0.0
 10
26.69113179800678
 20
-754.6425298163576
 30
0.0
 10
26.70166905584359
 20
-754.6764749857999
 30
0.0
  0
LINE
  5
9A
330
1F
100
AcDbEntity
  8
0
  6
Continuous
 62
     7
370
    25
100
AcDbLine
 10
26.7016690558
 20
-987.1764749858
 30
0.0
 11
-328.2983309442
 21
-987.1764749858
 31
0.0
  0
LINE
  5
9B
330
1F
100
AcDbEntity
  8
0
  6
Continuous
 62
     7
370
    25
100
AcDbLine
 10
26.7016690558
 20
-412.1764749858
 30
0.0
 11
-328.2983309442
 21
-412.1764749858
 31
0.0
  0
LINE
  5
9C
330
1F
100
AcDbEntity
  8
0
  6
Continuous
 62
     7
370
    25
100
AcDbLine
 10
149.2016690558
 20
-644.6764749858
 30
0.0
 11
149.2016690558
 21
-754.6764749858
 31
0.0
  0
LINE
  5
9D
330
1F
100
AcDbEntity
  8
0
  6
Continuous
 62
     7
370
    25
100
AcDbLine
 10
26.7016690558
 20
954.4244808616
 30
0.0
 11
26.7016690558
 21
1186.9244808616
 31
0.0
  0
LINE
  5
9E
330
1F
100
AcDbEntity
  8
0
  6
Continuous
 62
     7
370
    25
100
AcDbLine
 10
26.7016690558
 20
611.9244808616
 30
0.0
 11
26.7016690558
 21
844.445708182
 31
0.0
  0
LINE
  5
9F
330
1F
100
AcDbEntity
  8
0
  6
Continuous
 62
     7
370
    25
100
AcDbLine
 10
-328.2983309442
 20
1186.9244808616
 30
0.0
 11
-328.2983309442
 21
611.9244808616
 31
0.0
  0
LINE
  5
A0
330
1F
100
AcDbEntity
  8
0
  6
Continuous
 62
     7
370
    25
100
AcDbLine
 10
26.6950922046
 20
844.4244808616
 30
0.0
 11
149.2016690558
 21
844.4244808616
 31
0.0
  0
LINE
  5
A1
330
1F
100
AcDbEntity
  8
0
  6
Continuous
 62
     7
370
    25
100
AcDbLine
 10
149.2016690558
 20
954.4244808616
 30
0.0
 11
26.7016690558
 21
954.4244808616
 31
0.0
  0
SPLINE
  5
A2
330
1F
100
AcDbEntity
  8
0
  6
Continuous
 62
     7
370
    25
100
AcDbSpline
210
0.0
220
0.0
230
1.0
 70
     8
 71
     3
 72
    45
 73
    41
 74
     0
 42
0.00000001
 43
0.00000001
 40
0.0
 40
0.0
 40
0.0
 40
0.0
 40
0.0256114425435947
 40
0.0512230898510204
 40
0.0775988729489286
 40
0.1039752510513449
 40
0.1295793877733279
 40
0.1551841540787872
 40
0.1814942940264373
 40
0.2078049731578408
 40
0.2341146416569742
 40
0.2604244786561236
 40
0.2874621483497767
 40
0.3144994964721555
 40
0.34140729325337
 40
0.3683143612595235
 40
0.3960506554464824
 40
0.4237859912882526
 40
0.4498802903221199
 40
0.4759740983577756
 40
0.5028892076876771
 40
0.5298043520150466
 40
0.5549207975712113
 40
0.5800376971224516
 40
0.6058647006609336
 40
0.6316924283888525
 40
0.657195252660686
 40
0.6826986719186765
 40
0.7088807843263623
 40
0.7350632094794206
 40
0.7616874054356582
 40
0.7883114614346494
 40
0.8156963194467378
 40
0.8430805634496648
 40
0.8698684658165036
 40
0.896655615016953
 40
0.9242834063343766
 40
0.9519104935067612
 40
0.9776827307351069
 40
0.9999999999999999
 40
0.9999999999999999
 40
0.9999999999999999
 40
0.9999999999999999
 10
26.70166905584359
 20
954.4244808615877
 30
0.0
 10
26.69078532880684
 20
954.3895555485975
 30
0.0
 10
26.66901778771785
 20
954.319704643389
 30
0.0
 10
26.49502221766262
 20
953.7551062690512
 30
0.0
 10
26.21671812211429
 20
952.8425772595061
 30
0.0
 10
25.83366912049223
 20
951.5611397869375
 30
0.0
 10
25.36337753956219
 20
949.9484364304022
 30
0.0
 10
24.8167817048984
 20
948.0121651251123
 30
0.0
 10
24.19965204084435
 20
945.737706813297
 30
0.0
 10
23.52733670213794
 20
943.1343273777957
 30
0.0
 10
22.82211524602418
 20
940.2374145392178
 30
0.0
 10
22.09621242909502
 20
937.0387879091286
 30
0.0
 10
21.36840610310228
 20
933.5470593987776
 30
0.0
 10
20.66042403961765
 20
929.7845505869755
 30
0.0
 10
19.9995260705923
 20
925.805703627319
 30
0.0
 10
19.39764986652112
 20
921.5963947821128
 30
0.0
 10
18.87625418960698
 20
917.1696625849208
 30
0.0
 10
18.46222775641792
 20
912.6452281985809
 30
0.0
 10
18.16959637438839
 20
908.1097440894046
 30
0.0
 10
17.99499575279909
 20
903.5557320803063
 30
0.0
 10
17.94514254118496
 20
898.9215632513198
 30
0.0
 10
18.02163257062914
 20
894.3479351325002
 30
0.0
 10
18.21534276317527
 20
889.9172256986824
 30
0.0
 10
18.51154310570471
 20
885.6147445012379
 30
0.0
 10
18.91161012408885
 20
881.3693063005254
 30
0.0
 10
19.40285736985159
 20
877.2291167141432
 30
0.0
 10
19.96779748771718
 20
873.2591613067594
 30
0.0
 10
20.59433578267128
 20
869.4456363891168
 30
0.0
 10
21.27067814309327
 20
865.8012028724847
 30
0.0
 10
21.9831998754901
 20
862.3327014735607
 30
0.0
 10
22.70766659767154
 20
859.0992413521967
 30
0.0
 10
23.43162905805679
 20
856.0954766817118
 30
0.0
 10
24.13042257970732
 20
853.3712299517472
 30
0.0
 10
24.77922084406781
 20
850.9711858178572
 30
0.0
 10
25.3535244903236
 20
848.9338724291965
 30
0.0
 10
25.84579440137436
 20
847.2462872840078
 30
0.0
 10
26.24220405258135
 20
845.9217531150852
 30
0.0
 10
26.51878527823628
 20
845.0165045099494
 30
0.0
 10
26.67732604023287
 20
844.5025060442575
 30
0.0
 10
26.68945712201859
 20
844.4637117501278
 30
0.0
 10
26.69508688698041
 20
844.4457081819656
 30
0.0
  0
LINE
  5
A3
330
1F
100
AcDbEntity
  8
0
  6
Continuous
 62
     7
370
    25
100
AcDbLine
 10
-328.2983309442
 20
1186.9244808616
 30
0.0
 11
26.7016690558
 21
1186.9244808616
 31
0.0
  0
LINE
  5
A4
330
1F
100
AcDbEntity
  8
0
  6
Continuous
 62
     7
370
    25
100
AcDbLine
 10
-328.2983309442
 20
611.9244808616
 30
0.0
 11
26.7016690558
 21
611.9244808616
 31
0.0
  0
LINE
  5
A5
330
1F
100
AcDbEntity
  8
0
  6
Continuous
 62
     7
370
    25
100
AcDbLine
 10
149.2016690558
 20
954.4244808616
 30
0.0
 11
149.2016690558
 21
844.4244808616
 31
0.0
  0
LINE
  5
A6
330
1F
100
AcDbEntity
  8
0
  6
Continuous
 62
     7
370
    25
100
AcDbLine
 10
1137.7332411471
 20
-69.6456096008
 30
0.0
 11
1712.7332411471
 21
-69.6456096008
 31
0.0
  0
LINE
  5
A7
330
1F
100
AcDbEntity
  8
0
  6
Continuous
 62
     7
370
    25
100
AcDbLine
 10
1712.7332411471
 20
285.3543903992
 30
0.0
 11
1137.7332411471
 21
285.3543903992
 31
0.0
  0
LINE
  5
A8
330
1F
100
AcDbEntity
  8
0
  6
Continuous
 62
     7
370
    25
100
AcDbLine
 10
1712.7332411471
 20
285.3543903992
 30
0.0
 11
1712.7332411471
 21
-69.6456096008
 31
0.0
  0
LINE
  5
A9
330
1F
100
AcDbEntity
  8
0
  6
Continuous
 62
     7
370
    25
100
AcDbLine
 10
1137.7332411471
 20
285.3543903992
 30
0.0
 11
1137.7332411471
 21
-69.6456096008
 31
0.0
  0
LINE
  5
AA
330
1F
100
AcDbEntity
  8
0
  6
Continuous
 62
     7
370
    25
100
AcDbLine
 10
-713.0845400695
 20
285.3543903992
 30
0.0
 11
-1288.0845400695
 21
285.3543903992
 31
0.0
  0
LINE
  5
AB
330
1F
100
AcDbEntity
  8
0
  6
Continuous
 62
     7
370
    25
100
AcDbLine
 10
-1288.0845400695
 20
-69.6456096008
 30
0.0
 11
-713.0845400695
 21
-69.6456096008
 31
0.0
  0
CIRCLE
  5
AC
330
1F
100
AcDbEntity
  8
0
  6
Continuous
 62
     7
370
    25
100
AcDbCircle
 10
-1000.5845400695
 20
107.8543903992
 30
0.0
 40
44.99999999999989
  0
CIRCLE
  5
AD
330
1F
100
AcDbEntity
  8
0
  6
Continuous
 62
     7
370
    25
100
AcDbCircle
 10
-1000.5845400695
 20
107.8543903992
 30
0.0
 40
54.99999999999989
  0
LINE
  5
AE
330
1F
100
AcDbEntity
  8
0
  6
Continuous
 62
     7
370
    25
100
AcDbLine
 10
-1288.0845400695
 20
107.8543903992
 30
0.0
 11
-1288.0845400695
 21
285.3543903992
 31
0.0
  0
LINE
  5
AF
330
1F
100
AcDbEntity
  8
0
  6
Continuous
 62
     7
370
    25
100
AcDbLine
 10
-1288.0845400695
 20
-69.6456096008
 30
0.0
 11
-1288.0845400695
 21
107.8543903992
 31
0.0
  0
LINE
  5
B0
330
1F
100
AcDbEntity
  8
0
  6
Continuous
 62
     7
370
    25
100
AcDbLine
 10
-713.0845400695
 20
107.8543903992
 30
0.0
 11
-713.0845400695
 21
285.3543903992
 31
0.0
  0
LINE
  5
B1
330
1F
100
AcDbEntity
  8
0
  6
Continuous
 62
     7
370
    25
100
AcDbLine
 10
-713.0845400695
 20
-69.6456096008
 30
0.0
 11
-713.0845400695
 21
107.8543903992
 31
0.0
  0
INSERT
  5
BD
330
1F
100
AcDbEntity
  8
FORMAT
100
AcDbBlockReference
  2
SW_CENTERMARKSYMBOL_1
 10
-1000.5845400695
 20
107.8543903992
 30
0.0
  0
LINE
  5
BE
330
1F
100
AcDbEntity
  8
0
  6
Continuous
 62
     7
370
    25
100
AcDbLine
 10
1549.5294524634
 20
-747.3307625542
 30
0.0
 11
1490.0123615486
 21
-712.97227731
 31
0.0
  0
LINE
  5
BF
330
1F
100
AcDbEntity
  8
0
  6
Continuous
 62
     7
370
    25
100
AcDbLine
 10
1380.003421412
 20
-649.4654679496
 30
0.0
 11
1142.9430532811
 21
-512.6134304051
 31
0.0
  0
LINE
  5
C0
330
1F
100
AcDbEntity
  8
0
  6
Continuous
 62
     7
370
    25
100
AcDbLine
 10
965.4574782382
 20
-820.0607765503
 30
0.0
 11
1372.0438774205
 21
-1054.7781086993
 31
0.0
  0
LINE
  5
C1
330
1F
100
AcDbEntity
  8
0
  6
Continuous
 62
     7
370
    25
100
AcDbLine
 10
1407.452278709
 20
-760.633198642
 30
0.0
 11
1497.1232648543
 21
-708.8672402098
 31
0.0
  0
LINE
  5
C2
330
1F
100
AcDbEntity
  8
0
  6
Continuous
 62
     7
370
    25
100
AcDbLine
 10
1442.1277345593
 20
-613.6018653479
 30
0.0
 11
1352.4566083635
 21
-665.3679046296
 31
0.0
  0
SPLINE
  5
C3
330
1F
100
AcDbEntity
  8
0
  6
Continuous
 62
     7
370
    25
100
AcDbSpline
210
0.0
220
0.0
230
1.0
 70
     8
 71
     3
 72
    36
 73
    32
 74
     0
 42
0.00000001
 43
0.00000001
 40
0.0
 40
0.0
 40
0.0
 40
0.0
 40
0.0340258065309107
 40
0.0686792560094337
 40
0.1033332545203392
 40
0.1386314690835175
 40
0.1726556072769396
 40
0.2072622014904486
 40
0.2418696194680781
 40
0.2770688376808476
 40
0.312031970256461
 40
0.3475911784229493
 40
0.3831503042243082
 40
0.4193258686430285
 40
0.4550735814405007
 40
0.491077965825737
 40
0.5279107506498251
 40
0.5650391384507946
 40
0.5997020686739258
 40
0.6350335286133738
 40
0.6703646354445966
 40
0.7063947582974469
 40
0.7397681773535469
 40
0.7737272949628243
 40
0.8076872388810568
 40
0.8422433402639877
 40
0.8761367832154467
 40
0.9105903489346693
 40
0.9450445577200183
 40
0.9800687762278122
 40
1.0
 40
1.0
 40
1.0
 40
1.0
 10
1344.114046046153
 20
-688.788326552834
 30
0.0
 10
1344.130862540063
 20
-690.0144664168954
 30
0.0
 10
1344.164805726371
 20
-692.4893636261872
 30
0.0
 10
1344.441993616855
 20
-696.4336795612227
 30
0.0
 10
1344.891061072109
 20
-700.5524530323847
 30
0.0
 10
1345.52339414016
 20
-704.7598375436052
 30
0.0
 10
1346.334277625225
 20
-709.0385863900226
 30
0.0
 10
1347.316976791486
 20
-713.3310868119783
 30
0.0
 10
1348.49019427558
 20
-717.682112052623
 30
0.0
 10
1349.849694179405
 20
-722.025674193766
 30
0.0
 10
1351.405793955514
 20
-726.3530269383837
 30
0.0
 10
1353.153559513851
 20
-730.6065541439151
 30
0.0
 10
1355.109908586067
 20
-734.7858517815432
 30
0.0
 10
1357.260173740482
 20
-738.8148844417875
 30
0.0
 10
1359.608134504731
 20
-742.6686843315877
 30
0.0
 10
1362.155795915934
 20
-746.3205730463233
 30
0.0
 10
1364.919399592894
 20
-749.7540677377261
 30
0.0
 10
1367.822909182292
 20
-752.8471753411039
 30
0.0
 10
1370.837752516776
 20
-755.5824221962166
 30
0.0
 10
1373.931926718664
 20
-757.9449609659008
 30
0.0
 10
1377.17665333386
 20
-759.985734409926
 30
0.0
 10
1380.448886428205
 20
-761.6202141523586
 30
0.0
 10
1383.734226670523
 20
-762.8695512617801
 30
0.0
 10
1386.982727570577
 20
-763.7410330250364
 30
0.0
 10
1390.270825188041
 20
-764.2633717830716
 30
0.0
 10
1393.53123414932
 20
-764.4228853832302
 30
0.0
 10
1396.75196016869
 20
-764.2249155836464
 30
0.0
 10
1399.889402460076
 20
-763.6814893385236
 30
0.0
 10
1402.940931878569
 20
-762.7733302255182
 30
0.0
 10
1405.472860238239
 20
-761.7507025772246
 30
0.0
 10
1406.908510910943
 20
-760.9010704081896
 30
0.0
 10
1407.42919227805
 20
-760.5929260610145
 30
0.0
  0
SPLINE
  5
C4
330
1F
100
AcDbEntity
  8
0
  6
Continuous
 62
     7
370
    25
100
AcDbSpline
210
0.0
220
0.0
230
1.0
 70
     8
 71
     3
 72
    16
 73
    12
 74
     0
 42
0.00000001
 43
0.00000001
 40
0.0
 40
0.0
 40
0.0
 40
0.0
 40
0.0575499561974008
 40
0.165223368552034
 40
0.272477160886848
 40
0.3804910596593316
 40
0.4909484406213442
 40
0.6022738656110055
 40
0.7505725685117943
 40
0.8988634092949933
 40
1.0
 40
1.0
 40
1.0
 40
1.0
 10
1352.48004984121
 20
-665.4083197911642
 30
0.0
 10
1352.157106731649
 20
-665.5862106887187
 30
0.0
 10
1351.229951405426
 20
-666.0969275557812
 30
0.0
 10
1349.908737648576
 20
-667.3047320040068
 30
0.0
 10
1348.500029632043
 20
-669.0102521969669
 30
0.0
 10
1347.282142671332
 20
-671.0808556348231
 30
0.0
 10
1346.246012611039
 20
-673.5096921252274
 30
0.0
 10
1345.310105401449
 20
-676.6051560969994
 30
0.0
 10
1344.578539552123
 20
-680.4840040635196
 30
0.0
 10
1344.172641379982
 20
-684.7056634222203
 30
0.0
 10
1344.130950611139
 20
-687.6104913960941
 30
0.0
 10
1344.114046046153
 20
-688.788326552834
 30
0.0
  0
LWPOLYLINE
  5
C5
330
1F
100
AcDbEntity
  8
0
  6
Continuous
 62
     7
370
    25
100
AcDbPolyline
 90
      142
 70
   128
 43
0.0
 10
1179.7117194203
 20
-593.8808835534
 10
1179.5871237336
 20
-587.4963689116
 10
1179.2135840468
 20
-581.2683852505
 10
1178.5918419883
 20
-575.209297655
 10
1177.7231319694
 20
-569.3311358828
 10
1176.6091787335
 20
-563.64557048
 10
1175.2521939316
 20
-558.1638896104
 10
1173.6548717314
 20
-552.8969766439
 10
1171.8203834683
 20
-547.8552885487
 10
1169.7523713489
 20
-543.0488351298
 10
1167.4549412199
 20
-538.4871591557
 10
1164.9326544161
 20
-534.1793174117
 10
1162.1905187045
 20
-530.1338627187
 10
1159.2339783417
 20
-526.3588269528
 10
1156.068903265
 20
-522.8617050978
 10
1152.7015774379
 20
-519.6494403657
 10
1149.1386863743
 20
-516.7284104106
 10
1145.3873038644
 20
-514.1044146671
 10
1141.454877931
 20
-511.782662836
 10
1137.3492160418
 20
-509.7677645405
 10
1133.0784696084
 20
-508.0637201747
 10
1128.6511178027
 20
-506.673912961
 10
1124.0759507217
 20
-505.6011022329
 10
1119.3620519362
 20
-504.8474179569
 10
1114.5187804559
 20
-504.4143565032
 10
1109.5557521481
 20
-504.3027776754
 10
1104.4828206459
 20
-504.5129030029
 10
1099.3100577854
 20
-505.0443153013
 10
1094.0477336084
 20
-505.8959595006
 10
1088.7062959725
 20
-507.0661447401
 10
1083.2963498076
 20
-508.5525477254
 10
1077.828636061
 20
-510.3522173409
 10
1072.3140103724
 20
-512.4615805092
 10
1066.7634215206
 20
-514.876449285
 10
1061.1878896859
 20
-517.5920291697
 10
1055.5984845706
 20
-520.602928631
 10
1050.0063034214
 20
-523.9031698067
 10
1044.4224489962
 20
-527.4862003734
 10
1038.858007521
 20
-531.3449065555
 10
1033.3240266795
 20
-535.4716272492
 10
1027.8314936783
 20
-539.8581692324
 10
1022.3913134332
 20
-544.4958234321
 10
1017.0142869186
 20
-549.3753822152
 10
1011.7110897228
 20
-554.4871576693
 10
1006.4922508532
 20
-559.8210008376
 10
1001.368131831
 20
-565.366321868
 10
996.3489061204
 20
-571.112111039
 10
991.4445389294
 20
-577.0469606181
 10
986.664767425
 20
-583.1590875107
 10
982.0190814012
 20
-589.4363566547
 10
977.5167044376
 20
-595.8663051132
 10
973.1665755867
 20
-602.4361668188
 10
968.9773316269
 20
-609.1328979192
 10
964.9572899142
 20
-615.9432026747
 10
961.1144318693
 20
-622.8535598555
 10
957.4563871312
 20
-629.8502495871
 10
953.9904184091
 20
-636.9193805898
 10
950.723407063
 20
-644.0469177582
 10
947.6618394415
 20
-651.2187100271
 10
944.8117940039
 20
-658.4205184668
 10
942.1789292514
 20
-665.6380445532
 10
939.7684724934
 20
-672.8569585564
 10
937.5852094686
 20
-680.0629279908
 10
935.6334748437
 20
-687.2416460712
 10
933.9171436071
 20
-694.3788601173
 10
932.4396233756
 20
-701.4603998513
 10
931.2038476288
 20
-708.4722055315
 10
930.2122698851
 20
-715.4003558667
 10
929.4668588304
 20
-722.2310956559
 10
928.9690944093
 20
-728.9508630973
 10
928.7199648869
 20
-735.5463167149
 10
928.7199648869
 20
-742.0043618459
 10
928.9690944093
 20
-748.3121766394
 10
929.4668588304
 20
-754.4572375132
 10
930.2122698851
 20
-760.4273440177
 10
931.2038476288
 20
-766.2106430589
 10
932.4396233756
 20
-771.7956524321
 10
933.9171436071
 20
-777.171283618
 10
935.6334748437
 20
-782.3268637986
 10
937.5852094686
 20
-787.2521570465
 10
939.7684724934
 20
-791.9373846481
 10
942.1789292514
 20
-796.3732445175
 10
944.8117940039
 20
-800.5509296655
 10
947.6618394415
 20
-804.4621456851
 10
950.723407063
 20
-808.0991272189
 10
953.9904184091
 20
-811.4546533766
 10
957.4563871312
 20
-814.5220620717
 10
961.1144318693
 20
-817.2952632482
 10
964.9572899142
 20
-819.7687509718
 10
968.9773316269
 20
-821.9376143616
 10
973.1665755867
 20
-823.7975473401
 10
977.5167044376
 20
-825.3448571826
 10
982.0190814012
 20
-826.5764718486
 10
986.664767425
 20
-827.4899460811
 10
991.4445389294
 20
-828.0834662616
 10
996.3489061204
 20
-828.3558540108
 10
1001.368131831
 20
-828.306568528
 10
1006.4922508532
 20
-827.9357076649
 10
1011.7110897228
 20
-827.2440077315
 10
1017.0142869186
 20
-826.2328420339
 10
1022.3913134332
 20
-824.9042181481
 10
1027.8314936783
 20
-823.2607739338
 10
1033.3240266795
 20
-821.3057722973
 10
1038.858007521
 20
-819.0430947135
 10
1044.4224489962
 20
-816.4772335192
 10
1050.0063034214
 20
-813.6132829944
 10
1055.5984845706
 20
-810.4569292476
 10
1061.1878896859
 20
-807.0144389272
 10
1066.7634215206
 20
-803.2926467789
 10
1072.3140103724
 20
-799.2989420766
 10
1077.828636061
 20
-795.0412539513
 10
1083.2963498076
 20
-790.5280356487
 10
1088.7062959725
 20
-785.7682477459
 10
1094.0477336084
 20
-780.7713403612
 10
1099.3100577854
 20
-775.5472343917
 10
1104.4828206459
 20
-770.1063018163
 10
1109.5557521481
 20
-764.4593451029
 10
1114.5187804559
 20
-758.6175757614
 10
1119.3620519362
 20
-752.592592084
 10
1124.0759507217
 20
-746.3963561183
 10
1128.6511178027
 20
-740.041169917
 10
1133.0784696084
 20
-733.5396511142
 10
1137.3492160418
 20
-726.9047078736
 10
1141.454877931
 20
-720.1495132609
 10
1145.3873038644
 20
-713.2874790897
 10
1149.1386863743
 20
-706.3322292936
 10
1152.7015774379
 20
-699.2975728774
 10
1156.068903265
 20
-692.1974765001
 10
1159.2339783417
 20
-685.0460367459
 10
1162.1905187045
 20
-677.8574521366
 10
1164.9326544161
 20
-670.6459949413
 10
1167.4549412199
 20
-663.4259828409
 10
1169.7523713489
 20
-656.211750501
 10
1171.8203834683
 20
-649.0176211123
 10
1173.6548717314
 20
-641.8578779526
 10
1175.2521939316
 20
-634.7467360292
 10
1176.6091787335
 20
-627.6983138563
 10
1177.7231319694
 20
-620.7266054236
 10
1178.5918419883
 20
-613.8454524129
 10
1179.2135840468
 20
-607.0685167166
 10
1179.5871237336
 20
-600.409253313
 10
1179.7117194203
 20
-593.8808835534
  0
LWPOLYLINE
  5
C6
330
1F
100
AcDbEntity
  8
0
  6
Continuous
 62
     7
370
    25
100
AcDbPolyline
 90
       19
 70
   128
 43
0.0
 10
1586.2981186025
 20
-828.5982157025
 10
1586.1735229159
 20
-822.2137010607
 10
1585.799983229
 20
-815.9857173995
 10
1585.1782411705
 20
-809.9266298041
 10
1584.3095311517
 20
-804.0484680319
 10
1583.1955779158
 20
-798.362902629
 10
1581.8385931139
 20
-792.8812217594
 10
1580.2412709137
 20
-787.6143087929
 10
1578.4067826506
 20
-782.5726206977
 10
1576.3387705312
 20
-777.7661672789
 10
1574.0413404022
 20
-773.2044913047
 10
1571.5190535984
 20
-768.8966495607
 10
1568.7769178868
 20
-764.8511948678
 10
1565.820377524
 20
-761.0761591018
 10
1562.6553024473
 20
-757.5790372469
 10
1559.2879766202
 20
-754.3667725147
 10
1555.7250855565
 20
-751.4457425596
 10
1551.9737030466
 20
-748.8217468162
 10
1549.5294524634
 20
-747.3307625542
  0
LWPOLYLINE
  5
C7
330
1F
100
AcDbEntity
  8
0
  6
Continuous
 62
     7
370
    25
100
AcDbPolyline
 90
       54
 70
   128
 43
0.0
 10
1372.0438774205
 20
-1054.7781086993
 10
1375.5637308092
 20
-1056.6549465106
 10
1379.752974769
 20
-1058.5148794892
 10
1384.1031036198
 20
-1060.0621893316
 10
1388.6054805835
 20
-1061.2938039976
 10
1393.2511666073
 20
-1062.2072782301
 10
1398.0309381116
 20
-1062.8007984106
 10
1402.9353053027
 20
-1063.0731861598
 10
1407.9545310133
 20
-1063.023900677
 10
1413.0786500354
 20
-1062.6530398139
 10
1418.2974889051
 20
-1061.9613398805
 10
1423.6006861008
 20
-1060.9501741829
 10
1428.9777126155
 20
-1059.6215502971
 10
1434.4178928605
 20
-1057.9781060828
 10
1439.9104258618
 20
-1056.0231044463
 10
1445.4444067033
 20
-1053.7604268625
 10
1451.0088481784
 20
-1051.1945656682
 10
1456.5927026037
 20
-1048.3306151434
 10
1462.1848837529
 20
-1045.1742613966
 10
1467.7742888681
 20
-1041.7317710762
 10
1473.3498207028
 20
-1038.0099789279
 10
1478.9004095547
 20
-1034.0162742256
 10
1484.4150352433
 20
-1029.7585861003
 10
1489.8827489898
 20
-1025.2453677977
 10
1495.2926951547
 20
-1020.4855798949
 10
1500.6341327907
 20
-1015.4886725102
 10
1505.8964569677
 20
-1010.2645665408
 10
1511.0692198282
 20
-1004.8236339653
 10
1516.1421513303
 20
-999.1766772519
 10
1521.1051796382
 20
-993.3349079104
 10
1525.9484511185
 20
-987.3099242331
 10
1530.662349904
 20
-981.1136882673
 10
1535.2375169849
 20
-974.758502066
 10
1539.6648687907
 20
-968.2569832632
 10
1543.935615224
 20
-961.6220400226
 10
1548.0412771132
 20
-954.8668454099
 10
1551.9737030466
 20
-948.0048112387
 10
1555.7250855565
 20
-941.0495614426
 10
1559.2879766202
 20
-934.0149050264
 10
1562.6553024473
 20
-926.9148086491
 10
1565.820377524
 20
-919.763368895
 10
1568.7769178868
 20
-912.5747842856
 10
1571.5190535984
 20
-905.3633270903
 10
1574.0413404022
 20
-898.1433149899
 10
1576.3387705312
 20
-890.9290826501
 10
1578.4067826506
 20
-883.7349532613
 10
1580.2412709137
 20
-876.5752101016
 10
1581.8385931139
 20
-869.4640681783
 10
1583.1955779158
 20
-862.4156460054
 10
1584.3095311517
 20
-855.4439375727
 10
1585.1782411705
 20
-848.562784562
 10
1585.799983229
 20
-841.7858488656
 10
1586.1735229159
 20
-835.1265854621
 10
1586.2981186025
 20
-828.5982157025
  0
LWPOLYLINE
  5
C8
330
1F
100
AcDbEntity
  8
0
  6
Continuous
 62
     7
370
    25
100
AcDbPolyline
 90
      129
 70
   128
 43
0.0
 10
1156.9428810661
 20
-607.0250541538
 10
1156.8191230863
 20
-601.2749433854
 10
1156.448147291
 20
-595.6815730595
 10
1155.8308473931
 20
-590.2584180951
 10
1154.9687105223
 20
-585.0185433474
 10
1153.8638136418
 20
-579.9745721338
 10
1152.518818545
 20
-575.1386558226
 10
1150.9369654428
 20
-570.5224445599
 10
1149.1220651579
 20
-566.1370592029
 10
1147.0784899442
 20
-561.993064529
 10
1144.8111629532
 20
-558.1004437844
 10
1142.3255463742
 20
-554.4685746334
 10
1139.6276282754
 20
-551.106206567
 10
1136.7239081778
 20
-548.0214398242
 10
1133.6213813973
 20
-545.2217058784
 10
1130.3275221929
 20
-542.7137495339
 10
1126.8502657597
 20
-540.5036126771
 10
1123.1979891131
 20
-538.5966197214
 10
1119.3794909075
 20
-536.9973647799
 10
1115.4039702394
 20
-535.7097005976
 10
1111.2810044865
 20
-534.7367292705
 10
1107.0205262343
 20
-534.0807947717
 10
1102.6327993481
 20
-533.7434773049
 10
1098.1283942463
 20
-533.7255894973
 10
1093.5181624353
 20
-534.0271744424
 10
1088.8132103674
 20
-534.6475055954
 10
1084.0248726842
 20
-535.5850885244
 10
1079.1646849106
 20
-536.8376645099
 10
1074.2443556646
 20
-538.4022159867
 10
1069.2757384504
 20
-540.2749738133
 10
1064.270803102
 20
-542.451426352
 10
1059.2416069471
 20
-544.9263303379
 10
1054.2002657597
 20
-547.6937235107
 10
1049.1589245723
 20
-550.7469389778
 10
1044.1297284174
 20
-554.0786212756
 10
1039.124793069
 20
-557.6807440897
 10
1034.1561758548
 20
-561.5446295908
 10
1029.2358466088
 20
-565.6609693402
 10
1024.3756588352
 20
-570.019846715
 10
1019.587321152
 20
-574.6107607977
 10
1014.882369084
 20
-579.4226516741
 10
1010.2721372731
 20
-584.4439270778
 10
1005.7677321713
 20
-589.6624903164
 10
1001.3800052851
 20
-595.065769414
 10
997.1195270328
 20
-600.640747398
 10
992.9965612799
 20
-606.3739936582
 10
989.0210406119
 20
-612.251696302
 10
985.2025424062
 20
-618.2596954291
 10
981.5502657597
 20
-624.3835172432
 10
978.0730093265
 20
-630.6084089212
 10
974.779150122
 20
-636.9193741539
 10
971.6766233415
 20
-643.3012092733
 10
968.7729032439
 20
-649.7385398794
 10
966.0749851451
 20
-656.2158578792
 10
963.5893685662
 20
-662.7175588461
 10
961.3220415752
 20
-669.2279796131
 10
959.2784663614
 20
-675.7314360062
 10
957.4635660765
 20
-682.2122606295
 10
955.8817129744
 20
-688.6548406086
 10
954.5367178775
 20
-695.0436552042
 10
953.431820997
 20
-701.3633132023
 10
952.5696841262
 20
-707.5985899933
 10
951.9523842284
 20
-713.7344642491
 10
951.581408433
 20
-719.7561541113
 10
951.4576504533
 20
-725.6491528016
 10
951.581408433
 20
-731.39926357
 10
951.9523842284
 20
-736.9926338959
 10
952.5696841262
 20
-742.4157888604
 10
953.431820997
 20
-747.655663608
 10
954.5367178775
 20
-752.6996348216
 10
955.8817129744
 20
-757.5355511328
 10
957.4635660765
 20
-762.1517623955
 10
959.2784663614
 20
-766.5371477525
 10
961.3220415752
 20
-770.6811424264
 10
963.5893685662
 20
-774.573763171
 10
966.0749851451
 20
-778.205632322
 10
968.7729032439
 20
-781.5680003884
 10
971.6766233415
 20
-784.6527671312
 10
974.779150122
 20
-787.452501077
 10
978.0730093265
 20
-789.9604574215
 10
981.5502657597
 20
-792.1705942783
 10
985.2025424063
 20
-794.077587234
 10
989.0210406119
 20
-795.6768421756
 10
992.9965612799
 20
-796.9645063578
 10
997.1195270328
 20
-797.9374776849
 10
1001.3800052851
 20
-798.5934121837
 10
1005.7677321713
 20
-798.9307296505
 10
1010.2721372731
 20
-798.9486174581
 10
1014.882369084
 20
-798.6470325131
 10
1019.587321152
 20
-798.02670136
 10
1024.3756588352
 20
-797.089118431
 10
1029.2358466088
 20
-795.8365424455
 10
1034.1561758548
 20
-794.2719909687
 10
1039.124793069
 20
-792.3992331421
 10
1044.1297284174
 20
-790.2227806035
 10
1049.1589245723
 20
-787.7478766175
 10
1054.2002657597
 20
-784.9804834447
 10
1059.2416069471
 20
-781.9272679777
 10
1064.270803102
 20
-778.5955856798
 10
1069.2757384504
 20
-774.9934628657
 10
1074.2443556646
 20
-771.1295773646
 10
1079.1646849106
 20
-767.0132376152
 10
1084.0248726842
 20
-762.6543602404
 10
1088.8132103674
 20
-758.0634461578
 10
1093.5181624353
 20
-753.2515552813
 10
1098.1283942463
 20
-748.2302798776
 10
1102.6327993481
 20
-743.011716639
 10
1107.0205262343
 20
-737.6084375414
 10
1111.2810044865
 20
-732.0334595574
 10
1115.4039702394
 20
-726.3002132972
 10
1119.3794909075
 20
-720.4225106534
 10
1123.1979891131
 20
-714.4145115264
 10
1126.8502657597
 20
-708.2906897123
 10
1130.3275221929
 20
-702.0657980342
 10
1133.6213813973
 20
-695.7548328015
 10
1136.7239081778
 20
-689.3729976822
 10
1139.6276282754
 20
-682.935667076
 10
1142.3255463742
 20
-676.4583490762
 10
1144.8111629532
 20
-669.9566481093
 10
1147.0784899442
 20
-663.4462273423
 10
1149.1220651579
 20
-656.9427709492
 10
1150.9369654428
 20
-650.461946326
 10
1152.518818545
 20
-644.0193663468
 10
1153.8638136418
 20
-637.6305517512
 10
1154.9687105223
 20
-631.3108937531
 10
1155.8308473931
 20
-625.0756169622
 10
1156.448147291
 20
-618.9397427063
 10
1156.8191230863
 20
-612.9180528441
 10
1156.9428810661
 20
-607.0250541538
  0
LWPOLYLINE
  5
C9
330
1F
100
AcDbEntity
  8
0
  6
Continuous
 62
     7
370
    25
100
AcDbPolyline
 90
       72
 70
   128
 43
0.0
 10
1501.4453048602
 20
-679.6037352948
 10
1501.3207883011
 20
-676.284385109
 10
1500.9482131346
 20
-672.8472495799
 10
1500.3304952667
 20
-669.3192289532
 10
1499.4724691772
 20
-665.7279347738
 10
1498.3808500836
 20
-662.101473788
 10
1497.0641813853
 20
-658.4682279699
 10
1495.5327678001
 20
-654.8566323941
 10
1493.7985947158
 20
-651.2949526928
 10
1491.8752343879
 20
-647.8110638389
 10
1489.7777397188
 20
-644.4322319861
 10
1487.5225264482
 20
-641.1849010749
 10
1485.1272446776
 20
-638.0944858727
 10
1482.6106407346
 20
-635.1851730684
 10
1479.9924104572
 20
-632.4797319795
 10
1477.2930450472
 20
-629.9993363505
 10
1474.5336706988
 20
-627.7633986403
 10
1471.7358832577
 20
-625.7894180932
 10
1468.921579204
 20
-624.0928437832
 10
1466.1127842825
 20
-622.6869537048
 10
1463.331481122
 20
-621.5827508538
 10
1460.5994371907
 20
-620.7888771148
 10
1457.9380344365
 20
-620.3115456262
 10
1455.3681019446
 20
-620.154492154
 10
1452.909752921
 20
-620.3189458546
 10
1450.58222728
 20
-620.8036196548
 10
1448.4037410657
 20
-621.604720325
 10
1446.3913438862
 20
-622.7159781662
 10
1444.560785478
 20
-624.1286960792
 10
1442.9263924427
 20
-625.8318176309
 10
1441.5009561217
 20
-627.8120135859
 10
1440.2956324869
 20
-630.053786226
 10
1439.31985483
 20
-632.5395906409
 10
1438.5812599342
 20
-635.2499720405
 10
1438.085628306
 20
-638.1637180156
 10
1437.8368389348
 20
-641.2580245534
 10
1437.8368389348
 20
-644.5086745096
 10
1438.085628306
 20
-647.8902271412
 10
1438.5812599342
 20
-651.3762172137
 10
1439.31985483
 20
-654.9393621285
 10
1440.2956324869
 20
-658.5517754454
 10
1441.5009561217
 20
-662.1851851324
 10
1442.9263924427
 20
-665.8111548324
 10
1444.560785478
 20
-669.401306416
 10
1446.3913438862
 20
-672.9275420796
 10
1448.4037410657
 20
-676.362264248
 10
1450.58222728
 20
-679.6785915632
 10
1452.909752921
 20
-682.8505692675
 10
1455.3681019446
 20
-685.8533723348
 10
1457.9380344365
 20
-688.6634997596
 10
1460.5994371907
 20
-691.2589584847
 10
1463.331481122
 20
-693.6194355266
 10
1466.1127842825
 20
-695.726456952
 10
1468.921579204
 20
-697.5635324613
 10
1471.7358832577
 20
-699.116284448
 10
1474.5336706988
 20
-700.3725605224
 10
1477.2930450472
 20
-701.3225286209
 10
1479.9924104572
 20
-701.9587539552
 10
1482.6106407346
 20
-702.2762571994
 10
1485.1272446776
 20
-702.2725534601
 10
1487.5225264482
 20
-701.9476717241
 10
1489.7777397188
 20
-701.3041546314
 10
1491.8752343879
 20
-700.3470385759
 10
1493.7985947158
 20
-699.0838142883
 10
1495.5327678001
 20
-697.5243682115
 10
1497.0641813853
 20
-695.6809051254
 10
1498.3808500836
 20
-693.5678526281
 10
1499.4724691772
 20
-691.2017482204
 10
1500.3304952667
 20
-688.6011098773
 10
1500.9482131346
 20
-685.7862911199
 10
1501.3207883011
 20
-682.7793217216
 10
1501.4453048602
 20
-679.6037352948
  0
LWPOLYLINE
  5
CA
330
1F
100
AcDbEntity
  8
0
  6
Continuous
 62
     7
370
    25
100
AcDbPolyline
 90
       79
 70
   128
 43
0.0
 10
1508.516372672
 20
-683.6857758539
 10
1508.3902615546
 20
-679.9992404013
 10
1508.0127460813
 20
-676.1910087488
 10
1507.3862745849
 20
-672.28577874
 10
1506.5149099735
 20
-668.3088772902
 10
1505.4043033808
 20
-664.2860961313
 10
1504.0616575168
 20
-660.2435245428
 10
1502.4956799551
 20
-656.2073801527
 10
1500.7165266613
 20
-652.2038389062
 10
1498.735736127
 20
-648.2588653044
 10
1496.566154539
 20
-644.3980440152
 10
1494.2218524665
 20
-640.646413946
 10
1491.7180336079
 20
-637.0283058574
 10
1489.0709361894
 20
-633.5671845688
 10
1486.2977276534
 20
-630.2854967799
 10
1483.4163933216
 20
-627.2045254953
 10
1480.4456197527
 20
-624.344251996
 10
1477.4046735532
 20
-621.7232262532
 10
1474.3132764262
 20
-619.3584466247
 10
1471.1914772684
 20
-617.2652496139
 10
1468.0595221451
 20
-615.4572104064
 10
1464.9377229873
 20
-613.9460548304
 10
1461.8463258603
 20
-612.7415833098
 10
1458.8053796609
 20
-611.8516073044
 10
1455.8346060919
 20
-611.2818986502
 10
1452.9532717601
 20
-611.0361521265
 10
1450.1800632241
 20
-611.1159614937
 10
1447.5329658056
 20
-611.5208091574
 10
1445.029146947
 20
-612.2480695253
 10
1442.6848448745
 20
-613.2930260348
 10
1440.5152632865
 20
-614.6489017418
 10
1438.5344727522
 20
-616.3069032722
 10
1436.7553194584
 20
-618.2562778499
 10
1435.1893418968
 20
-620.4843830325
 10
1433.8466960328
 20
-622.9767687031
 10
1432.7360894401
 20
-625.7172707841
 10
1431.8647248286
 20
-628.688116068
 10
1431.2382533322
 20
-631.8700374831
 10
1430.8607378589
 20
-635.2423990479
 10
1430.7346267415
 20
-638.7833297037
 10
1430.8607378589
 20
-642.4698651564
 10
1431.2382533322
 20
-646.2780968089
 10
1431.8647248286
 20
-650.1833268176
 10
1432.7360894401
 20
-654.1602282674
 10
1433.8466960328
 20
-658.1830094263
 10
1435.1893418968
 20
-662.2255810148
 10
1436.7553194584
 20
-666.2617254049
 10
1438.5344727522
 20
-670.2652666515
 10
1440.5152632865
 20
-674.2102402532
 10
1442.6848448745
 20
-678.0710615424
 10
1445.029146947
 20
-681.8226916117
 10
1447.5329658056
 20
-685.4407997003
 10
1450.1800632241
 20
-688.9019209888
 10
1452.9532717601
 20
-692.1836087778
 10
1455.8346060919
 20
-695.2645800624
 10
1458.8053796609
 20
-698.1248535617
 10
1461.8463258603
 20
-700.7458793044
 10
1464.9377229873
 20
-703.1106589329
 10
1468.0595221451
 20
-705.2038559438
 10
1471.1914772684
 20
-707.0118951512
 10
1474.3132764262
 20
-708.5230507272
 10
1477.4046735532
 20
-709.7275222479
 10
1480.4456197527
 20
-710.6174982532
 10
1483.4163933216
 20
-711.1872069074
 10
1486.2977276534
 20
-711.4329534312
 10
1489.0709361894
 20
-711.353144064
 10
1491.7180336079
 20
-710.9482964002
 10
1494.2218524665
 20
-710.2210360323
 10
1496.566154539
 20
-709.1760795229
 10
1498.735736127
 20
-707.8202038158
 10
1500.7165266613
 20
-706.1622022854
 10
1502.4956799551
 20
-704.2128277078
 10
1504.0616575168
 20
-701.9847225251
 10
1505.4043033808
 20
-699.4923368545
 10
1506.5149099735
 20
-696.7518347735
 10
1507.3862745849
 20
-693.7809894896
 10
1508.0127460813
 20
-690.5990680746
 10
1508.3902615546
 20
-687.2267065097
 10
1508.516372672
 20
-683.6857758539
  0
ENDSEC
  0
SECTION
  2
OBJECTS
  0
DICTIONARY
  5
C
330
0
100
AcDbDictionary
281
     1
  3
ACAD_GROUP
350
D
  3
ACAD_LAYOUT
350
1A
  3
ACAD_MLINESTYLE
350
17
  3
ACAD_PLOTSETTINGS
350
19
  3
ACAD_PLOTSTYLENAME
350
E
  3
ACAD_SCALELIST
350
47
  3
DWGPROPS
350
CB
  0
DICTIONARY
  5
D
102
{ACAD_REACTORS
330
C
102
}
330
C
100
AcDbDictionary
281
     1
  0
DICTIONARY
  5
1A
102
{ACAD_REACTORS
330
C
102
}
330
C
100
AcDbDictionary
281
     1
  3
Layout1
350
1E
  3
Layout2
350
26
  3
Model
350
22
  0
DICTIONARY
  5
17
102
{ACAD_REACTORS
330
C
102
}
330
C
100
AcDbDictionary
281
     1
  3
Standard
350
18
  0
DICTIONARY
  5
19
102
{ACAD_REACTORS
330
C
102
}
330
C
100
AcDbDictionary
281
     1
  0
ACDBDICTIONARYWDFLT
  5
E
102
{ACAD_REACTORS
330
C
102
}
330
C
100
AcDbDictionary
281
     1
  3
Normal
350
F
100
AcDbDictionaryWithDefault
340
F
  0
DICTIONARY
  5
47
102
{ACAD_REACTORS
330
C
102
}
330
C
100
AcDbDictionary
281
     1
  3
A0
350
48
  3
A1
350
49
  3
A2
350
4A
  3
A3
350
4B
  3
A4
350
4C
  3
A5
350
4D
  3
A6
350
4E
  3
A7
350
4F
  3
A8
350
50
  3
A9
350
51
  3
B0
350
52
  3
B1
350
53
  3
B2
350
54
  3
B3
350
55
  3
B4
350
56
  3
B5
350
57
  3
B6
350
58
  3
B7
350
59
  3
B8
350
5A
  3
B9
350
5B
  3
C0
350
5C
  3
C1
350
5D
  3
C2
350
5E
  3
C3
350
5F
  3
C4
350
60
  3
C5
350
61
  3
C6
350
62
  3
C7
350
63
  3
C8
350
64
  3
C9
350
65
  3
D0
350
66
  3
D1
350
67
  3
D2
350
68
  0
XRECORD
  5
CB
102
{ACAD_REACTORS
330
C
102
}
330
C
100
AcDbXrecord
280
     1
  1
DWGPROPS COOKIE
  2

  3

  4

  6

  7

  8
b.kav
  9

300
=
301
=
302
=
303
=
304
=
305
=
306
=
307
=
308
=
309
=
 40
0.0
 41
2459921.394901667
 42
2459921.394901944
  1

 90
        0
  0
LAYOUT
  5
1E
102
{ACAD_REACTORS
330
1A
102
}
330
1A
100
AcDbPlotSettings
  1

  2
none_device
  4

  6

 40
0.0
 41
0.0
 42
0.0
 43
0.0
 44
0.0
 45
0.0
 46
0.0
 47
0.0
 48
0.0
 49
0.0
140
0.0
141
0.0
142
1.0
143
1.0
 70
   688
 72
     1
 73
     0
 74
     5
  7

 75
    16
147
1.0
148
0.0
149
0.0
100
AcDbLayout
  1
Layout1
 70
     1
 71
     1
 10
0.0
 20
0.0
 11
420.0
 21
297.0
 12
0.0
 22
0.0
 32
0.0
 14
1.0000000000E+20
 24
1.0000000000E+20
 34
1.0000000000E+20
 15
-1.0000000000E+20
 25
-1.0000000000E+20
 35
-1.0000000000E+20
146
0.0
 13
0.0
 23
0.0
 33
0.0
 16
1.0
 26
0.0
 36
0.0
 17
0.0
 27
1.0
 37
0.0
 76
     0
330
1B
  0
LAYOUT
  5
26
102
{ACAD_REACTORS
330
1A
102
}
330
1A
100
AcDbPlotSettings
  1

  2
none_device
  4

  6

 40
0.0
 41
0.0
 42
0.0
 43
0.0
 44
0.0
 45
0.0
 46
0.0
 47
0.0
 48
0.0
 49
0.0
140
0.0
141
0.0
142
1.0
143
1.0
 70
   688
 72
     1
 73
     0
 74
     5
  7

 75
    16
147
1.0
148
0.0
149
0.0
100
AcDbLayout
  1
Layout2
 70
     1
 71
     2
 10
0.0
 20
0.0
 11
0.0
 21
0.0
 12
0.0
 22
0.0
 32
0.0
 14
0.0
 24
0.0
 34
0.0
 15
0.0
 25
0.0
 35
0.0
146
0.0
 13
0.0
 23
0.0
 33
0.0
 16
1.0
 26
0.0
 36
0.0
 17
0.0
 27
1.0
 37
0.0
 76
     0
330
23
  0
LAYOUT
  5
22
102
{ACAD_REACTORS
330
1A
102
}
330
1A
100
AcDbPlotSettings
  1

  2
none_device
  4
Letter_(8.50_x_11.00_Inches)
  6

 40
6.35
 41
6.35
 42
6.35000508
 43
6.35000508
 44
215.9
 45
279.4
 46
0.0
 47
0.0
 48
0.0
 49
0.0
140
0.0
141
0.0
142
1.0
143
1.0
 70
  1712
 72
     1
 73
     0
 74
     0
  7

 75
     0
147
1.0
148
0.0
149
0.0
100
AcDbLayout
  1
Model
 70
     1
 71
     0
 10
0.0
 20
0.0
 11
279.4
 21
215.9
 12
0.0
 22
0.0
 32
0.0
 14
0.0
 24
0.0
 34
0.0
 15
279.4
 25
215.9
 35
0.0
146
0.0
 13
0.0
 23
0.0
 33
0.0
 16
1.0
 26
0.0
 36
0.0
 17
0.0
 27
1.0
 37
0.0
 76
     0
330
1F
331
29
  0
MLINESTYLE
  5
18
102
{ACAD_REACTORS
330
17
102
}
330
17
100
AcDbMlineStyle
  2
Standard
 70
     0
  3

 62
   256
 51
90.0
 52
90.0
 71
     2
 49
0.5
 62
   256
  6
BYLAYER
 49
-0.5
 62
   256
  6
BYLAYER
  0
ACDBPLACEHOLDER
  5
F
102
{ACAD_REACTORS
330
E
102
}
330
E
  0
SCALE
  5
48
102
{ACAD_REACTORS
330
47
102
}
330
47
100
AcDbScale
 70
     0
300
1:1
140
1.0
141
1.0
290
     1
  0
SCALE
  5
49
102
{ACAD_REACTORS
330
47
102
}
330
47
100
AcDbScale
 70
     0
300
1:2
140
1.0
141
2.0
290
     0
  0
SCALE
  5
4A
102
{ACAD_REACTORS
330
47
102
}
330
47
100
AcDbScale
 70
     0
300
1:4
140
1.0
141
4.0
290
     0
  0
SCALE
  5
4B
102
{ACAD_REACTORS
330
47
102
}
330
47
100
AcDbScale
 70
     0
300
1:5
140
1.0
141
5.0
290
     0
  0
SCALE
  5
4C
102
{ACAD_REACTORS
330
47
102
}
330
47
100
AcDbScale
 70
     0
300
1:8
140
1.0
141
8.0
290
     0
  0
SCALE
  5
4D
102
{ACAD_REACTORS
330
47
102
}
330
47
100
AcDbScale
 70
     0
300
1:10
140
1.0
141
10.0
290
     0
  0
SCALE
  5
4E
102
{ACAD_REACTORS
330
47
102
}
330
47
100
AcDbScale
 70
     0
300
1:16
140
1.0
141
16.0
290
     0
  0
SCALE
  5
4F
102
{ACAD_REACTORS
330
47
102
}
330
47
100
AcDbScale
 70
     0
300
1:20
140
1.0
141
20.0
290
     0
  0
SCALE
  5
50
102
{ACAD_REACTORS
330
47
102
}
330
47
100
AcDbScale
 70
     0
300
1:30
140
1.0
141
30.0
290
     0
  0
SCALE
  5
51
102
{ACAD_REACTORS
330
47
102
}
330
47
100
AcDbScale
 70
     0
300
1:40
140
1.0
141
40.0
290
     0
  0
SCALE
  5
52
102
{ACAD_REACTORS
330
47
102
}
330
47
100
AcDbScale
 70
     0
300
1:50
140
1.0
141
50.0
290
     0
  0
SCALE
  5
53
102
{ACAD_REACTORS
330
47
102
}
330
47
100
AcDbScale
 70
     0
300
1:100
140
1.0
141
100.0
290
     0
  0
SCALE
  5
54
102
{ACAD_REACTORS
330
47
102
}
330
47
100
AcDbScale
 70
     0
300
2:1
140
2.0
141
1.0
290
     0
  0
SCALE
  5
55
102
{ACAD_REACTORS
330
47
102
}
330
47
100
AcDbScale
 70
     0
300
4:1
140
4.0
141
1.0
290
     0
  0
SCALE
  5
56
102
{ACAD_REACTORS
330
47
102
}
330
47
100
AcDbScale
 70
     0
300
8:1
140
8.0
141
1.0
290
     0
  0
SCALE
  5
57
102
{ACAD_REACTORS
330
47
102
}
330
47
100
AcDbScale
 70
     0
300
10:1
140
10.0
141
1.0
290
     0
  0
SCALE
  5
58
102
{ACAD_REACTORS
330
47
102
}
330
47
100
AcDbScale
 70
     0
300
100:1
140
100.0
141
1.0
290
     0
  0
SCALE
  5
59
102
{ACAD_REACTORS
330
47
102
}
330
47
100
AcDbScale
 70
     0
300
1/128" = 1'-0"
140
0.0078125
141
12.0
290
     0
  0
SCALE
  5
5A
102
{ACAD_REACTORS
330
47
102
}
330
47
100
AcDbScale
 70
     0
300
1/64" = 1'-0"
140
0.015625
141
12.0
290
     0
  0
SCALE
  5
5B
102
{ACAD_REACTORS
330
47
102
}
330
47
100
AcDbScale
 70
     0
300
1/32" = 1'-0"
140
0.03125
141
12.0
290
     0
  0
SCALE
  5
5C
102
{ACAD_REACTORS
330
47
102
}
330
47
100
AcDbScale
 70
     0
300
1/16" = 1'-0"
140
0.0625
141
12.0
290
     0
  0
SCALE
  5
5D
102
{ACAD_REACTORS
330
47
102
}
330
47
100
AcDbScale
 70
     0
300
3/32" = 1'-0"
140
0.09375
141
12.0
290
     0
  0
SCALE
  5
5E
102
{ACAD_REACTORS
330
47
102
}
330
47
100
AcDbScale
 70
     0
300
1/8" = 1'-0"
140
0.125
141
12.0
290
     0
  0
SCALE
  5
5F
102
{ACAD_REACTORS
330
47
102
}
330
47
100
AcDbScale
 70
     0
300
3/16" = 1'-0"
140
0.1875
141
12.0
290
     0
  0
SCALE
  5
60
102
{ACAD_REACTORS
330
47
102
}
330
47
100
AcDbScale
 70
     0
300
1/4" = 1'-0"
140
0.25
141
12.0
290
     0
  0
SCALE
  5
61
102
{ACAD_REACTORS
330
47
102
}
330
47
100
AcDbScale
 70
     0
300
3/8" = 1'-0"
140
0.375
141
12.0
290
     0
  0
SCALE
  5
62
102
{ACAD_REACTORS
330
47
102
}
330
47
100
AcDbScale
 70
     0
300
1/2" = 1'-0"
140
0.5
141
12.0
290
     0
  0
SCALE
  5
63
102
{ACAD_REACTORS
330
47
102
}
330
47
100
AcDbScale
 70
     0
300
3/4" = 1'-0"
140
0.75
141
12.0
290
     0
  0
SCALE
  5
64
102
{ACAD_REACTORS
330
47
102
}
330
47
100
AcDbScale
 70
     0
300
1" = 1'-0"
140
1.0
141
12.0
290
     0
  0
SCALE
  5
65
102
{ACAD_REACTORS
330
47
102
}
330
47
100
AcDbScale
 70
     0
300
1-1/2" = 1'-0"
140
1.5
141
12.0
290
     0
  0
SCALE
  5
66
102
{ACAD_REACTORS
330
47
102
}
330
47
100
AcDbScale
 70
     0
300
3" = 1'-0"
140
3.0
141
12.0
290
     0
  0
SCALE
  5
67
102
{ACAD_REACTORS
330
47
102
}
330
47
100
AcDbScale
 70
     0
300
6" = 1'-0"
140
6.0
141
12.0
290
     0
  0
SCALE
  5
68
102
{ACAD_REACTORS
330
47
102
}
330
47
100
AcDbScale
 70
     0
300
1'-0" = 1'-0"
140
12.0
141
12.0
290
     0
  0
ENDSEC
  0
EOF
